Forum des Fans Français de Dj Ashba
Venez vous inscrire sur le forum, ça prend 1 minute
Sign up, It's free and fast

Forum des Fans Français de Dj Ashba


 
AccueilAccueil  S'enregistrerS'enregistrer  ConnexionConnexion  

Partagez | 
 

 Vos tablatures sur Dj et sixx:am

Voir le sujet précédent Voir le sujet suivant Aller en bas 
Aller à la page : Précédent  1, 2
AuteurMessage
Fan-dja-France
Admin
Admin
avatar

Messages : 3273
Date d'inscription : 20/08/2012
Mon Age : 37

MessageSujet: Re: Vos tablatures sur Dj et sixx:am   Sam 29 Déc - 20:06

Moi j'en bave sur sweet child of mine , la 1ère partie .... Pas la 2 eme
Revenir en haut Aller en bas
http://www.djashba-france.com
marmote66
Fan Expert
Fan Expert
avatar

Messages : 1048
Date d'inscription : 26/08/2012
Mon Age : 34

MessageSujet: Re: Vos tablatures sur Dj et sixx:am   Sam 29 Déc - 20:24

Faut vous filmer pour nous montrer vos exploits !!!!





Suis super admirative des musiciens
Revenir en haut Aller en bas
Fan-dja-France
Admin
Admin
avatar

Messages : 3273
Date d'inscription : 20/08/2012
Mon Age : 37

MessageSujet: Re: Vos tablatures sur Dj et sixx:am   Sam 29 Déc - 20:32

Ah moi non c'est tellement mauvais mdr:
Revenir en haut Aller en bas
http://www.djashba-france.com
lylipop
Fan Pro
Fan Pro
avatar

Messages : 242
Date d'inscription : 29/08/2012

MessageSujet: Re: Vos tablatures sur Dj et sixx:am   Sam 29 Déc - 21:03

Ohhhhh ! Mais Wonder est super simple ma parole affraid

Moi qui m'attendais à un truc compliqué avec des #7 de partous !!
Revenir en haut Aller en bas
lylipop
Fan Pro
Fan Pro
avatar

Messages : 242
Date d'inscription : 29/08/2012

MessageSujet: Re: Vos tablatures sur Dj et sixx:am   Sam 29 Déc - 21:05

Aidan N. LeFloch a écrit:
Ballad Of Death







Bon je poste la dernière partie dès que je peux



Celle-là je vais m'y coller au piano je crois bien. A défault de savoir me servir convenablement d'une guitare
Revenir en haut Aller en bas
DementedCaro
Fan Expert
Fan Expert
avatar

Messages : 1078
Date d'inscription : 18/11/2012
Mon Age : 35

MessageSujet: Re: Vos tablatures sur Dj et sixx:am   Sam 29 Déc - 23:37

marmote66 a écrit:
Faut vous filmer pour nous montrer vos exploits !!!!





Suis super admirative des musiciens

Moi j'ai encore trop honte, je ne suis pas vraiment ce qu'on appelle une "guitar hero" tu vois...
Revenir en haut Aller en bas
DementedCaro
Fan Expert
Fan Expert
avatar

Messages : 1078
Date d'inscription : 18/11/2012
Mon Age : 35

MessageSujet: Re: Vos tablatures sur Dj et sixx:am   Sam 29 Déc - 23:38

lylipop a écrit:
Ohhhhh ! Mais Wonder est super simple ma parole affraid

Moi qui m'attendais à un truc compliqué avec des #7 de partous !!

Ouais j'ai été très très agréablement surprise de voir qu'il y avait moyen de la jouer relativement facilement! Et en fait Sure feels right aussi d'ailleurs Wink
Revenir en haut Aller en bas
lylipop
Fan Pro
Fan Pro
avatar

Messages : 242
Date d'inscription : 29/08/2012

MessageSujet: Re: Vos tablatures sur Dj et sixx:am   Dim 30 Déc - 8:58

DementedCaro a écrit:
lylipop a écrit:
Ohhhhh ! Mais Wonder est super simple ma parole affraid

Moi qui m'attendais à un truc compliqué avec des #7 de partous !!

Ouais j'ai été très très agréablement surprise de voir qu'il y avait moyen de la jouer relativement facilement! Et en fait Sure feels right aussi d'ailleurs Wink

Mmmh très bon à savoir ça Twisted Evil
Revenir en haut Aller en bas
Marx1412
Fan Expert
Fan Expert
avatar

Messages : 322
Date d'inscription : 12/11/2012
Mon Age : 39

MessageSujet: Re: Vos tablatures sur Dj et sixx:am   Lun 31 Déc - 1:56

Artist:Sixx:A.M.
Song:Life Is Beautiful
Album:The Heroin Diaries Soundtrack
Guitarist:DJ Ashba
Tabber:Dev Fuld

OK, first of all...this is my first guitar tab. Second of all, this is an awesome tune,
I've been workin' on getting down for a while now. I think that the tab is pretty
and there are little things like wah's and muting that you can figure out yourself.

Key:
* = Let it ring
p = Palm Mute
h = Hammer-on
b = Bend

Acoustic or Clean
e:-----------------------|-----------------------|
b:---------3*----5*----3*|-----------------------|
G:-----------------------|---------------------2*|
D:------0*---------------|------3*-5*----5*------|
A:---0*-------0*----0*---|---3*-------3*----3*---|
D:0*---------------------|3*---------------------|

e:-----------------------|
b:---------------3*------|
G:------3*-5*----------3*|
D:---3*-------3*----3*---|
A:1*---------------------|
D:-----------------------|

Distortion
e:----------|----------------------|-------------------------------|
b:----------|----------------------|-------------------------------|
G:----------|7-9-10-9-7*--2*-------|5-7-5-3*--2*-------------------|
D:5-5-5-5-55|-----------------5-7*-|--------------3-5--7--5-3-2-3-2|
A:5-5-5-5-55|5-7-8--7-5*--0*-------|3-5-3-1*--0*-------------------|
D:5-5-5-5-55|-----------------5-7*-|--------------3-5--7--5-3-2-3-2|
p p p p

e:--------------------------------------------------|
b:--------------------------------------------------|
G:5-7--5-7--7--5-7--5-7--5--5-7--5-7--7-7-----------|
D:5-7--5-7--7--5-7--5-7--3--5-7--5-7--7-7----6-5-3-0|
A:3-5--3-5--5--3-5--3-5-----3-5--3-5--5-5----6-5-3-0|
D:-----------------------------------------0-6-5-3-0|

e:-------------------------------------------------------|
b:-------------------------------------------------------|
G:5-7--5-7--7--5-7--5-7--5--5-7-7--5-7-------------------|
D:5-7--5-7--7--5-7--5-7--3--5-7-7--5-7----6-5-3-0-6-5-3-0|
A:3-5--3-5--5--3-5--3-5-----3-5-5--3-5----6-5-3-0-6-5-3-0|
D:--------------------------------------0-6-5-3-0-6-5-3-0|

Verse
e:-------------------------------|
b:-------------------------6-----|
G:--7--7-5-7--7-5-7--7-5-7---7-5-|
D:-------------------------------|
A:-------------------------------|
D:-------------------------------|
p p p p p p p p p p p p

e:-------------------------------|
b:-------------------------6-----|
G:--7--7-5-7--7-5-7--7-5-7---7-5-|
D:-------------------------------|
A:-------------------------------|
D:-------------------------------|
p p p p p p p p p p p p

e:-------------------------------|
b:-------------------------6-----|
G:--7--7-5-7--7-5-7--7-5-7---7-5-|
D:-------------------------------|
A:-------------------------------|
D:-------------------------------|
p p p p p p p p p p p p

e:--------------------------------|
b:------------------6-------6-----|
G:--7--7-5-7--7-5-7---7-5-7---7-5-|
D:--------------------------------|
A:--------------------------------|
D:--------------------------------|
p p p p p p p p p p p p

e:---------------------------|
b:---------------------------|
G:7*---10*-------------------|
D:7*---10*---8*---5-5--5-5--5|
A:5*---8*----8*---5-5--5-5--5|
D:-----------8*---5-5--5-5--5|

Chorus
e:--------------------|-------------------------------|
b:--------------------|-------------------------------|
G:9-10-9-7*--2*-------|5-7-5-3*--2*-------------------|
D:---------------5-7*-|--------------3-5--7--5-3-2-3-2|
A:7-8--7-5*--0*-------|3-5-3-1*--0*-------------------|
D:---------------5-7*-|--------------3-5--7--5-3-2-3-2|

e:-------------|-------------------------------|
b:-------------|-------------------------------|
G:7*--2*-------|5-7-5-3*--2*-------------------|
D:--------5-7*-|--------------3-5--7--5-3-2-3-2|
A:5*--0*-------|3-5-3-1*--0*-------------------|
D:--------5-7*-|--------------3-5--7--5-3-2-3-2|

e:--------------------------------------------------|
b:--------------------------------------------------|
G:5-7--5-7--7--5-7--5-7--5--5-7--5-7--7-7-----------|
D:5-7--5-7--7--5-7--5-7--3--5-7--5-7--7-7----6-5-3-0|
A:3-5--3-5--5--3-5--3-5-----3-5--3-5--5-5----6-5-3-0|
D:-----------------------------------------0-6-5-3-0|

e:-------------------------------------------------------|
b:-------------------------------------------------------|
G:5-7--5-7--7--5-7--5-7--5--5-7-7--5-7-------------------|
D:5-7--5-7--7--5-7--5-7--3--5-7-7--5-7----6-5-3-0-6-5-3-0|
A:3-5--3-5--5--3-5--3-5-----3-5-5--3-5----6-5-3-0-6-5-3-0|
D:--------------------------------------0-6-5-3-0-6-5-3-0|

Verse

Chorus

Bridge
e:---------------|---------------|---------------|-----------------|
b:---------------|---------------|---------------|-----------------|
G:---------------|---------------|---------------|----------2-0----|
D:------2-3-2-3-5|------2-3-2-3-5|------0-2-0-2-3|------0h2-----3-2|
A:5-0-5----------|5-0-5----------|4-0-4----------|4-0-4------------|
D:---------------|---------------|---------------|-----------------|
p p p p p p p p p p p p p p p p p p p p p p p p p p p

e:---------------|---------------|---------------|-----------------|
b:---------------|---------------|---------------|-----------------|
G:---------------|---------------|---------------|----------2-0----|
D:------2-3-2-3-5|------2-3-2-3-5|------0-2-0-2-3|------0h2-----3-2|
A:5-0-5----------|5-0-5----------|4-0-4----------|4-0-4------------|
D:---------------|---------------|---------------|-----------------|

e:-------------------------|-------------------------|
b:-------------------------|-------------------------|
G:----------------------12-|----------------------12-|
D:-12----12-14-15-14-15----|-12----12-14-15-14-15----|
A:----12-------------------|----12-------------------|
D:-------------------------|-------------------------|

e:-----------------------------|----------------------|
b:-----------------------------|----------------------|
G:-----------------------------|----------14-12-------|
D:-11----11-12-14-12-14-15--11-|----11-12-------15-14-|
A:----12-----------------------|-12-------------------|
D:-----------------------------|----------------------|

e:---------------|---------------------|
b:3---5---6---7--|2---3---5---2---3*---|
G:5b--7b--8b--9b-|4b--5b--7b--4b--5b*--|
D:---------------|---------------------|
A:---------------|---------------------|
D:---------------|---------------------|

Acoustic or Clean
e:-----------------------|-----------------------|
b:---------3*----5*----3*|-----------------------|
G:-----------------------|---------------------2*|
D:------0*---------------|------3*-5*----5*------|
A:---0*-------0*----0*---|---3*-------3*----3*---|
D:0*---------------------|3*---------------------|

e:-----------------------|--------------------------|
b:---------------3*------|--------------------------|
G:------3*-5*----------3*|--------------------------|
D:---3*-------3*----3*---|------5*-7*----8*-7*-5*-3*|
A:1*---------------------|---5*-------5*------------|
D:-----------------------|5*------------------------|

Chorus

End
e:--------------------------------------------------|
b:--------------------------------------------------|
G:5-7--5-7--7--5-7--5-7--5--5-7--5-7--7-7-----------|
D:5-7--5-7--7--5-7--5-7--3--5-7--5-7--7-7----6-5-3-0|
A:3-5--3-5--5--3-5--3-5-----3-5--3-5--5-5----6-5-3-0|
D:-----------------------------------------0-6-5-3-0|

e:-------------------------------------------------------|
b:-------------------------------------------------------|
G:5-7--5-7--7--5-7--5-7--5--5-7-7--5-7-------------------|
D:5-7--5-7--7--5-7--5-7--3--5-7-7--5-7----6-5-3-0-6-5-3-0|
A:3-5--3-5--5--3-5--3-5-----3-5-5--3-5----6-5-3-0-6-5-3-0|
D:--------------------------------------0-6-5-3-0-6-5-3-0|



Attention, s'accorder en open D (accordé le mi grave en Ré)
Revenir en haut Aller en bas
http://ronmrx.wix.com/marx#!
lylipop
Fan Pro
Fan Pro
avatar

Messages : 242
Date d'inscription : 29/08/2012

MessageSujet: Re: Vos tablatures sur Dj et sixx:am   Lun 31 Déc - 8:27

Tous en choeur : Merci Marx ! cheers
Revenir en haut Aller en bas
Marx1412
Fan Expert
Fan Expert
avatar

Messages : 322
Date d'inscription : 12/11/2012
Mon Age : 39

MessageSujet: Re: Vos tablatures sur Dj et sixx:am   Mer 2 Jan - 11:15

Allez, encore un de mes kiffs rhooooo celle là, elle me fout la chaire de poule



Girl With Golden Eyes
Sixx:A.M.

Tabbed by: Sean Oldham


You can use standard chord shapes but it sounds better (to me, at least) if you use barres.

Dm A# C Gm
e|---------5-----------6----------3---------3------------------------|
B|---------6-----------6----------5---------3------------------------|
G|---------7-----------7----------5---------3------------------------|
D|---------7-----------8----------5---------5------------------------|
A|---------5-----------8----------3---------5------------------------|
E|---------------------6--------------------3------------------------|
Intro

Dm A# C Dm


VERSE

Dm A#
She speaks to me in Persian

C
Tells me that she loves me

Dm
The girl with golden eyes

A#
And though I hardly know her

C
I let her in my veins

Dm
And trust her with my life



A#
I wish I had never kissed her

C
'Cause I just can't resist her

Dm
The girl with golden eyes

A#
Every time she whispers

C
'Take me in your arms

Dm
The way you did last night.'


CHORUS

A#
Everything will be okay

Dm
Everything will be alright

A# Gm
If I can get away from her

A#
And save my worthless life.


VERSE

Dm A#
I wake up every morning

C
Jonesing for her love

Dm
The girl with golden eyes

A#
I won't have to wait long

C
'Til she buries me with roses

Dm
'Cause she's always by my side



CHORUS

A#
Everything will be okay

Dm
Everything will be alright

A# Gm
If I can get away from her

A#
And save my worthless life.



SPOKEN WORD

Repeat A# Dm throughout


Day 1. Dope free. I went to the clinic today and got the first dose of methadone.
I'm out of dope so I threw away all my rigs.

Day 2. I can't believe it's been two days without junk.
Fucking smack, it just ruins peoples' lives.
At first it seems so sweet, then you wake up next to a monster.

Day 3. I haven't had anything for three days now.
This withdrawal is killing me. It's like shock therapy to my guts.

Day 4. Last visit to the clinic. My whole body feels like it's cracking into pieces.
Fragile doesn't even come close to describing how I feel.

Day 5. I'm sick as a dog, but this handful of painkillers
and a lotta whiskey's gonna get me through.

Day 6. When I'm left to my own devices I go fucking insane.
I'll never use heroin again.

Day 7. I can't believe I'm clean!

Day 8. Everyone says I look better.

Day 9. The parasites are panicking.

Day 10. They seem amazed that I'm alive!


CHORUS

A#
Everything will be okay

Dm
Everything will be alright

A# (no Gm this time)
If I can get away from her

Dm
And save my worthless life.

A#
Everything will be okay

Dm
Everything will be alright

A# Gm
If I can get away from her

A#
And save my worthless life.
Revenir en haut Aller en bas
http://ronmrx.wix.com/marx#!
Marx1412
Fan Expert
Fan Expert
avatar

Messages : 322
Date d'inscription : 12/11/2012
Mon Age : 39

MessageSujet: Re: Vos tablatures sur Dj et sixx:am   Jeu 3 Jan - 22:14

Mi amore




e|-----------------------------------------------------------------------------------------|
B|-----------------------------------------------------------------------------------------|
G|-----------10h12--10h12~~ --10--10 /12\ 10------------------10h12/15\13---13p12---13\12--|
D|-------------------------------------------------------12-10~~ --------------------------|
A|-----------------------------------------------------------------------------------------|
E|---x-15\ --------------------------------------------------------------------------------|

e|-------------------------------------------------------------------------------------|
B|-------------------------------------------------------------------------------------|
G|-10~~ ----10/15-- 10~~ -----12~~ -------13~~ ---------------------13\12---12--13p12--|
D|--------8---------------------8-----------8------------/12/15/20\15------------------|
A|-------------------------------------------------------------------------------------|
E|-------------------------------------------------------------------------------------|

1 (o:47)

2 (1:03) & (2:18)

e|--------------------------------------------|-----------------------------|
B|--------------------------------------------|-----------------------------|
G|--12\10\8---10b12r10p8--10--8~~ ----|-----10h12--10h12~~ --10--10/12\10---|
D|--------------------------------------------|-----------------------------|
A|--------------------------------------------|-----------------------------|
E|--------------------------------------------|-----------------------------|

----------------------------|
----------------------------|
----------------------------|
------------------12--10~~ -|
----------------------------|
----------------------------|

e|------------------------------------------------------------------------------------------|
B|---------------------------16----------------------13--15~~ -----16~~ -----18~~ ---- 18/--|
G|--10h12/15p13---13-------13~~ -------15------------------15--------15---------------------|
D|----------------------------------------15------------------------------------------------|
A|------------------------------------------------------------------------------------------|
E|------------------------------------------------------------------------------------------|

e|-----------------------------------------------------------------------------------------------|
B|--9p8--8--9--8-----16--15--13-----------------16-16-16--15--------------16-15------------------|
G|-------------------------------------15--13--12---------------------15--12-----------15--12~~ -|
D|-----------------------------------------------------------------------------------------------|
A|-----------------------------------------------------------------------------------------------|
E|-----------------------------------------------------------------------------------------------|

(1:20)

e|--------------------------------------------------|
B|---------------------------------------16---------|
G|----------------17------15p13--13------13~~ ------|
D|--10/14/15--------15------------------------------|
A|--------------------------------------------------|
E|--------------------------------------------------|

------------------------------------------------|
---------15p13---------------15p13--------------|
------------15-------------------15-------------|
-------------------15-15----------------15-15\--|
------------------------------------------------|
------------------------------------------------|


e|----------------------------------------------------|
B|----------------------------------------------------|
G|--------------15------13p12--12--13p12h13p12(3x) ---|
D|-10/14/15------15-----------------------------------|
A|----------------------------------------------------|
E|----------------------------------------------------|

-----------------------------------------------------|
---------------------------------------------13--15--|
---17--19b20r19~~ ---/13-----------------------------|
------/17--------------------------------------------|
-----------------------------------------------------|
-----------------------------------------------------|


(1:38) & (3:01)

e|-------------------------------------------------------------------------------|
B|-18b20r18~~ --16h18p16---15h16p15h16 (x4)---13h15p13h15(x4)---11h13p11h13(x4)--|
G|-------------------------------------------------------------------------------|
D|-------------------------------------------------------------------------------|
A|-------------------------------------------------------------------------------|
E|-------------------------------------------------------------------------------|

e|-----------------------------------------------------------------------------------|--|
B|--9/---21p20--20---21p20--18b20r18p16--18b20r18p16--18--16------|---------------------|
G|----------------------------------------------------------------------------------|---|
D|----------------------------------------------------------------------------------|---|
A|----------------------------------------------------------------------------------|---|
E|----------------------------------------------------------------------------------|---|

e|-------------------------------------------------------------------------------------|
B|--13p12-13~~ -13p12- 13~~ -13p12------------13--15--15b16-----11------11~~ ----------|
G|--------------------------------------------------13-----------------------------12--|
D|----------------------------------------------13-------------------------------------|
A|-------------------------------------------------------------------------------------|
E|-------------------------------------------------------------------------------------|

3 (1:48) & (2:03)

4 (1:55)

e|-------15-----13-------11h13p11---------|----------------------------13------11--------|
B|-------------------------------------11~~ -|-13b14--11----11~~ ------------------------|
G|-12-----12-------12------------------------|--------------10------10------10-------10--|
D|----------------------------------------------|----------------------------------------|
A|----------------------------------------------|----------------------------------------|
E|----------------------------------------------|----------------------------------------|

e|-10h11p10-----------11 ----------11----------------------|-------|
B|--------------11--11b13------11b13-----11b13r11--9--|------------|
G|--------------------------------------------------------------|--|
D|--------------------------------------------------------------|--|
A|------------------------------------------------------------ |---|
E|--------------------------------------------------------------|--|

Do nr.3 again!---after that it goes like this...

e|----------13----------------------------13-------------------------------11------11-10-8--|
B|----13b15-----13b15r13--11---13b15----13b15r13--11-----11b13--9--------------11-9-8~~ ----|
G|------------------------------------------------------------------------------------------|
D|------------------------------------------------------------------------------------------|
A|------------------------------------------------------------------------------------------|
E|------------------------------------------------------------------------------------------|

Do nr.2 again! after that it goes like ..

5 (3:03)
[ Tab from: http://www.guitaretab.com/d/dj-ashba/302641.html ]
e|-----------------------------------------------------------------------------------|
B|-13p12-13~~ -13p12- 13~~ -13p12-----------13--15--15b16-----11------11~~ ----------|
G|------------------------------------------------13-----------------------------12--|
D|--------------------------------------------13-------------------------------------|
A|-----------------------------------------------------------------------------------|
E|-----------------------------------------------------------------------------------|

e|---------15--------13--------11h13p11--------------------------------|
B|--------------------------------------------11~~ --------------------|
G|--12--------12--------12---------------------------------------------|
D|---------------------------------------------------------------------|
A|---------------------------------------------------------------------|
E|---------------------------------------------------------------------|

e|--------13-----------------------------13--------11-------10h11p10-----------11---------11--|
B|--13b15--13b15r13--11~~ ------------------------------------------11--11b13----11b13--------|
G|----------------------------------10--------10-------10-------------------------------------|
D|--------------------------------------------------------------------------------------------|
A|--------------------------------------------------------------------------------------------|
E|--------------------------------------------------------------------------------------------|

e|--------13--------------------------------------|
B|--11b13----18b20--18--16--18b20r18p16---18--16--|
G|------------------------------------------------|
D|------------------------------------------------|
A|------------------------------------------------|
E|------------------------------------------------|

e|-----------------------------------------------------------------------------------|
B|-13p12-13~~ -13p12- 13~~ -13p12-----------13--15--15b16-----11------11~~ ----------|
G|------------------------------------------------13-----------------------------12--|
D|--------------------------------------------13-------------------------------------|
A|-----------------------------------------------------------------------------------|
E|-----------------------------------------------------------------------------------|

e|-------15-----13-------11h13p11-----------------------|
B|--------------------------------------11~~ -----------|
G|-12-----12-------12-----------------------------------|
D|------------------------------------------------------|
A|------------------------------------------------------|
E|------------------------------------------------------|

e|---------13-----------------------------13------------------------------11-------11-10-8--|
B|----13b15-----13b15r13--11---13b15----13b15r13--11-----11b13---9-------------11-9-8~~ ----|
G|------------------------------------------------------------------------------------------|
D|------------------------------------------------------------------------------------------|
A|------------------------------------------------------------------------------------------|
E|------------------------------------------------------------------------------------------|

6 (Tremolo strumming!!) (3:48)

e|---------------------------------------------------------------------------------|
B|---------------------------------------------------------------------------------|
G|---------------------------------------------------------------------------------|
D|---------------------------------------------------------------------------------|
A|----3--5--6--10--6------3--5--6--10--11--10--11--13--11--10--6--5--6---8--10--8--|
E|---------------------------------------------------------------------------------|

e|-----------------------------------------------------------------------------------------|
B|-----------------------------------------------------------------------------------------|
G|---------------------------------5--7--8--12--8----5--7--8--13---12--13--15—13-12-8-7-8--|
D|-----------------------------------------------------------------------------------------|
A|---6--8--6--5--6--5--3~~ ----------------------------------------------------------------|
E|-----------------------------------------------------------------------------------------|

(Tremolo strumming!!)

(Tremolo strumming!!)

e|---------------------------------------|
B|---------------------------------------|
G|---10--12--10--8--10--8--7--8--7--5~~ -|
D|---------------------------------------|
A|---------------------------------------|
E|---------------------------------------|

And finally the same part as Nr. 5 again!
(4:18)

e|------------------------------------------------------------------------------------|
B|-13p12-13~~ -13p12- 13~~ -13p12------------13--15--15b16-----11------11~~ ----------|
G|-------------------------------------------------13-----------------------------12--|
D|---------------------------------------------13-------------------------------------|
A|------------------------------------------------------------------------------------|
E|------------------------------------------------------------------------------------|

e|-------15--------13--------11h13p11--------------------------------|
B|------------------------------------------11~~ --------------------|
G|--12-------12--------12--------------------------------------------|
D|-------------------------------------------------------------------|
A|-------------------------------------------------------------------|
E|-------------------------------------------------------------------|

e|--------13-----------------------------13--------11-------10h11p10------------11---------11--|
B|--13b15--13b15r13--11~~ -------------------------------------------11--11b13----11b13--------|
G|--------------------------------10--------10-------10----------------------------------------|
D|---------------------------------------------------------------------------------------------|
A|---------------------------------------------------------------------------------------------|
E|---------------------------------------------------------------------------------------------|

e|------------------------------------------------|
B|--11b13----18b20--18--16--18b20r18p16---18--16--|
G|------------------------------------------------|
D|------------------------------------------------|
A|------------------------------------------------|
E|------------------------------------------------|

e|-----------------------------------------------------------------------------------|
B|-13p12-13~~ -13p12- 13~~ -13p12-----------13--15--15b16-----11------11~~ ----------|
G|------------------------------------------------13-----------------------------12--|
D|--------------------------------------------13-------------------------------------|
A|-----------------------------------------------------------------------------------|
E|-----------------------------------------------------------------------------------|

e|-------15-----13-------11h13p11-------------------|
B|--------------------------------------11~~ -------|
G|-12-----12-------12-------------------------------|
D|--------------------------------------------------|
A|--------------------------------------------------|
E|--------------------------------------------------|

e|----------13----------------------------13------------------------------11--------11-10-8----|
B|----13b15-----13b15r13--11---13b15----13b15r13--11-----11b13---9---------------11-9-8\6/8~~ -|
G|---------------------------------------------------------------------------------------------|
D|---------------------------------------------------------------------------------------------|
A|---------------------------------------------------------------------------------------------|
E|---------------------------------------------------------------------------------------------|
Revenir en haut Aller en bas
http://ronmrx.wix.com/marx#!
Fan-dja-France
Admin
Admin
avatar

Messages : 3273
Date d'inscription : 20/08/2012
Mon Age : 37

MessageSujet: Re: Vos tablatures sur Dj et sixx:am   Jeu 3 Jan - 22:17

Merci Marx
Revenir en haut Aller en bas
http://www.djashba-france.com
Marx1412
Fan Expert
Fan Expert
avatar

Messages : 322
Date d'inscription : 12/11/2012
Mon Age : 39

MessageSujet: Re: Vos tablatures sur Dj et sixx:am   Jeu 3 Jan - 22:19

Fan-dja-France a écrit:
Merci Marx

De nada senior ;-)
Revenir en haut Aller en bas
http://ronmrx.wix.com/marx#!
lylipop
Fan Pro
Fan Pro
avatar

Messages : 242
Date d'inscription : 29/08/2012

MessageSujet: Re: Vos tablatures sur Dj et sixx:am   Ven 4 Jan - 8:57

J'ai essayé Wonder ... Ben ... Ca colle pas tellement je trouve ... Faudrait que je regarde pour des tutoriaux youtube.

Tu sais s'il met un capo? Je la trouve jouée aigue dans l'officielle
Revenir en haut Aller en bas
Marx1412
Fan Expert
Fan Expert
avatar

Messages : 322
Date d'inscription : 12/11/2012
Mon Age : 39

MessageSujet: Re: Vos tablatures sur Dj et sixx:am   Ven 4 Jan - 11:31

lylipop a écrit:
J'ai essayé Wonder ... Ben ... Ca colle pas tellement je trouve ... Faudrait que je regarde pour des tutoriaux youtube.

Tu sais s'il met un capo? Je la trouve jouée aigue dans l'officielle


Pas de capot, juste que sa gratte est accordée en Mib. Essaye en accordant tout 1/2 ton plus bas, perso chez moi ça colle pas mal.
Revenir en haut Aller en bas
http://ronmrx.wix.com/marx#!
lylipop
Fan Pro
Fan Pro
avatar

Messages : 242
Date d'inscription : 29/08/2012

MessageSujet: Re: Vos tablatures sur Dj et sixx:am   Ven 4 Jan - 13:18

Enh, il s'accorde déjà comme les Guns ^^ Au pire j'me décale d'une frête si je joue en power chord... Vu que je joue mes compos ça va être la misère si je désaccorde sans arrêt... Mmmh faut que j'étudie la question ^^
Revenir en haut Aller en bas
DementedCaro
Fan Expert
Fan Expert
avatar

Messages : 1078
Date d'inscription : 18/11/2012
Mon Age : 35

MessageSujet: Re: Vos tablatures sur Dj et sixx:am   Ven 4 Jan - 15:19

Marx1412 a écrit:
lylipop a écrit:
J'ai essayé Wonder ... Ben ... Ca colle pas tellement je trouve ... Faudrait que je regarde pour des tutoriaux youtube.

Tu sais s'il met un capo? Je la trouve jouée aigue dans l'officielle


Pas de capot, juste que sa gratte est accordée en Mib. Essaye en accordant tout 1/2 ton plus bas, perso chez moi ça colle pas mal.

Bah tu peux aussi bien mettre un capo en f1... Moi je joue sans, accordée en E standard et je chante dessus, ça ne me choque pas outre mesure.
Revenir en haut Aller en bas
Marx1412
Fan Expert
Fan Expert
avatar

Messages : 322
Date d'inscription : 12/11/2012
Mon Age : 39

MessageSujet: Re: Vos tablatures sur Dj et sixx:am   Ven 4 Jan - 16:29

1/2 ton c'est pas la mère à boire
Revenir en haut Aller en bas
http://ronmrx.wix.com/marx#!
lylipop
Fan Pro
Fan Pro
avatar

Messages : 242
Date d'inscription : 29/08/2012

MessageSujet: Re: Vos tablatures sur Dj et sixx:am   Ven 4 Jan - 22:50

Mmmh, j'dois pas le gratter correctement
Revenir en haut Aller en bas
Marx1412
Fan Expert
Fan Expert
avatar

Messages : 322
Date d'inscription : 12/11/2012
Mon Age : 39

MessageSujet: Re: Vos tablatures sur Dj et sixx:am   Ven 4 Jan - 23:11

http://www.911tabs.com/link/?7231303


Essaye celle là, les accords sont mieux placés sur le texte
Revenir en haut Aller en bas
http://ronmrx.wix.com/marx#!
lylipop
Fan Pro
Fan Pro
avatar

Messages : 242
Date d'inscription : 29/08/2012

MessageSujet: Re: Vos tablatures sur Dj et sixx:am   Sam 5 Jan - 9:27

Non ils ont du DJ sur ce site? ^^ dingue lol

En fait je me suis réaccordée avec un accordeur, il se trouve que je joue avec la guitare de ma mère qui l'accorde en bémol x) forcément quand on le sait pas c'est la misère. J'pouvais trouver les tab fausses mdr
Revenir en haut Aller en bas
Marx1412
Fan Expert
Fan Expert
avatar

Messages : 322
Date d'inscription : 12/11/2012
Mon Age : 39

MessageSujet: Re: Vos tablatures sur Dj et sixx:am   Sam 5 Jan - 14:06

lylipop a écrit:
Non ils ont du DJ sur ce site? ^^ dingue lol

En fait je me suis réaccordée avec un accordeur, il se trouve que je joue avec la guitare de ma mère qui l'accorde en bémol x) forcément quand on le sait pas c'est la misère. J'pouvais trouver les tab fausses mdr

Et oui lol, ils ont vraiment pas mal au niveau des tabs.

Haaa clair, perso j'ai résolu le problème, deux acoustique, une accordé en standard et l'autre 1/2 ton en dessous et pareil au niveau des électriques.
Revenir en haut Aller en bas
http://ronmrx.wix.com/marx#!
lylipop
Fan Pro
Fan Pro
avatar

Messages : 242
Date d'inscription : 29/08/2012

MessageSujet: Re: Vos tablatures sur Dj et sixx:am   Sam 5 Jan - 20:30

Bah moi 3 guitares, 1 clavier, une batterie, deux micros, 3 amplis et rien à moi x)
Revenir en haut Aller en bas
DementedCaro
Fan Expert
Fan Expert
avatar

Messages : 1078
Date d'inscription : 18/11/2012
Mon Age : 35

MessageSujet: Re: Vos tablatures sur Dj et sixx:am   Dim 6 Jan - 1:32

lylipop a écrit:
Non ils ont du DJ sur ce site? ^^ dingue lol

En fait je me suis réaccordée avec un accordeur, il se trouve que je joue avec la guitare de ma mère qui l'accorde en bémol x) forcément quand on le sait pas c'est la misère. J'pouvais trouver les tab fausses mdr


Revenir en haut Aller en bas
Contenu sponsorisé




MessageSujet: Re: Vos tablatures sur Dj et sixx:am   

Revenir en haut Aller en bas
 
Vos tablatures sur Dj et sixx:am
Voir le sujet précédent Voir le sujet suivant Revenir en haut 
Page 2 sur 2Aller à la page : Précédent  1, 2

Permission de ce forum:Vous ne pouvez pas répondre aux sujets dans ce forum
Forum des Fans Français de Dj Ashba :: Forum concernant Dj Ashba exclusivement :: Section Spécial Fan de Dj-
Sauter vers: